Khaseka Tara chords, tabs & lyrics by Albatross

Here are the chords, tabs & lyrics for Khaseka Tara by Albatross. This is one of the most popular songs by Albatross. We hope to bring you more from Albatross in the future. Hope you enjoy the song!

This song uses chords that are slightly varied from the basic positions. Positions, riffs and progressions are all listed at the end of the song. Please follow the chord positions from there.

Intro:

Play plucking #1 twice

Song begins:

Play plucking #1 twice
Timi bhanda dherai maya kasle dina sakcha ra
Timi jasto jhutho kasam kasle khana sakcha ra

Play plucking #2 twice
Herana
Nahera malai
Jalauna malai

Play Riff #1

Play Riff #1 for the following paragraph:
Eklo nai chu ma aja
Eklai ramauna deu
Ekant ko sunyatama asu khasalna deu

Play Riff #1 for the following paragraph:
Jeevan ko yo goretoma
Farki tehi puge
Jeevan yo k ho k ho
Nabujhi baulai rahe ma

Play Progression #1 for the following:
Timi bina ma
Jalauna malai

Chorus:
Play Progression #2 4 times for the following:
Khaseka tara gandai timilai nai maagi base x 3
Raata biteko chalai payeena

Play Riff #1

Play Riff #1 for the following paragraph:
Aja pheri yaada ayo
Bhannalai kohi chaina
Chadera jana pani maanale yo mandaina

Play Riff #1 for the following paragraph:

Jaanu cha dherai tadha
Farki aune kahile
Hridaya ma chodi dinchu
Samhali rakhi deuna

Play Progression #1 for the following:
Timi bina ma
Jalauna malai

Chorus:
Play Progression #2 4 times for the following:
Khaseka tara gandai timilai nai maagi base x 3
Raata biteko chalai payeena

Riff #2 x 4

Solo:
Play Progression #2 four times

Chorus:
Play Progression #2 4 times for the following:
Khaseka tara gandai timilai nai maagi base x 3
Raata biteko chalai payeena

End
------------------------------------------------------------------

Plucking #1:
E ------------------------------------------------------
B ---3-----3-----3----3-------7---7-----7---8p7---7-----
G -------------0----0--0--------------0---0-----9---9---
D ------------------------------------------------------
A -3----3----3----3-------7-----7---7-------------------
E --------------------------0---------------------------

Plucking #2:
E -------------0-------0-------------------0------0--------
B -----3---3-----3---3--3--3-------3---3-----3--3---3--3---
G ---2---2---2-----2-----2-------2---2---2-----2------2----
D -0-------------------------------------------------------
A -----------------------------3---------------------------
E ---------------------------------------------------------

Riff #1 (chord positions are shown at the end below):
| Em, D | Em, D | Em, D | C, D |

Riff #2:
| E5 - F#5, G5 | C5, D5 |

Progression #1 (chord positions are shown at the end below):
| Asus2 | Em/C | Asus2 | Em/C , D? |

Progression #2 (chord positions are shown at the end below):
| Em/C, D? | Em |

Chord positions for Riff #1:

Em:
E - 7
B - 7
G - 9
D - 9
A - 7
E - 0

D:
E - 5
B - 5
G - 7
D - 7
A - 5
E - 5

C
E - 3
B - 3
G - 5
D - 5
A - 3
E - 3

Chord positions for progression #1 & #2:
Asus2:
E - 0
B - 0
G - 2
D - 2
A - 0
E - x

Em:
E - 0
B - 8
G - 0
D - 9
A - 7
E - 0

Em/7:
E - 0
B - 0
G - 0
D - 2
A - 3
E - 0

D?:
E - 0
B - 0
G - 0
D - 4
A - 5
E - x

3 Comments

Leave a Comment