Na Bhulideu timi – Bhram Chords, tabs and lyrics

Here are the chords, tabs and lyrics for Nepali song “Na Bhulideu timi” by Bhram. Not sure but I’ve heard this band is based on Darjeeling. Hope you will enjoy this beautiful song!

Guitar on this song is mostly plucking. Plucking for each chord is listed at the end of the song below.

If you want to play using chords, here are the chords used:

C#m(open chord):
E - 0
B - 0
G - 6
D - 6
A - 4
E - x

B(open chord):
E - 0
B - 0
G - 4
D - 4
A - 2
E - x

A(open chord):
E - 0
B - 0
G - 2
D - 2
A - 0
E - x

INTRO:

Chords during the piano in the intro(no guitar here):

| C#m | A | B | C#m | A | B | C# | A | B | A |

Plucking begins:

Plucking #1

E ---------0------------------0------------------0-----------------0--------
B -------4---4----4--------4----4----4---------4----4----4-------4----4----4-
G ----4---------4--------4---------4---------4--------4--------4--------4---
D ----------------------------------------------------------------------------
A -4------------------0---------------------------------------2--------------
E -----------------------------------------0---------------------------------

Repeat Plucking #1

  C#m               A
Nabhuli deu timi tadha bhayi diye pani
  E                B
Nabhuli deu timi malai
C#m            A    B
Ojhel bhaye pani
C#m            A    B
Ojhel bhaye pani

  C#m              A
Nabhuli deu timi tadha bhayi diye pani
  E                B
Nabhuli deu timi malai
C#m            A    B
Ojhel bhaye pani
C#m            A    B
Ojhel bhaye pani

Solo #1
| C#m | A | B | B | x 2

A      G#m      A        E
Mero mutu ma timi nai hunchau
A      G#m    A         B      B
Jaha gayeni timi nai hunchau
A      G#m     A         E
Mero mutu ma timi nai hunchau
A      G#m     A        B      B
Jaha gayeni timi nai hunchau

A           G#m   A      B       A      B
Praaye haar ek pal kewal timi hunchau mero
Saatha ma (play plucking #1)
Saatha ma

Solo #2
| C#m | G#m | A | E |
| G#m | A | B | B |
| C#m | F#m | G# | A | B | A | B  | B |

   C#m
Samjhana ma timi
   A
Kalpana ma timi
  E              B
Sapani ma pani sadhai
C#m                A    B
Chayi rahanchau timi

  C#m              A
Nabhuli deu timi tadha bhayi diye pani
  E                B
Nabhuli deu timi malai
C#m            A    B
Ojhel bhaye pani
C#m            A    B
Ojhel bhaye pani
C#m            A    B
Ojhel bhaye pani
C#m            A    B
Ojhel bhaye pani

Plucking on C#m:
E ------------0--------------
B ----------4---4----4-----
G -------4---------4-------
D --------------------------
A -----4-------------------
E --------------------------

Plucking on A:
E ------------0--------------
B ----------4---4----4-----
G -------4---------4-------
D --------------------------
A -----0-------------------
E --------------------------

Plucking on E:
E ------------0--------------
B ----------4---4----4-----
G -------4---------4-------
D --------------------------
A -------------------------
E -----0---------------------

Plucking on B:
E ------------0--------------
B ----------4---4----4-----
G -------4---------4-------
D --------------------------
A -------------------------
E -----2---------------------

7 Comments

Leave a Comment