Pinjada ko suga – 1974 Ad chords and lyrics

Here are the chords for Pinjada ko suga by 1974 AD. This is one of the fun songs to play and sing! Hope you enjoy it. Please like and share it with your friends!

E5, G5, C5, B5 and all other 5 chords are power chords with just two notes: the root and the 5th note of the scale.

Intro:
| E5 | D5 | C5 | B5 | x 2

While pausing riff:
| E5 | G5 | C5 | B5 | x 2

Riff when the drums begin::
| E5 | G5 | C5 | B5 | x 2 

E5            G5
Balaka baburo dristi ko naam ma
C5           B5
Hu ma pareko chu pinjada ma
E5                G5
Makana hare shiva shanti ra chayena
C5               B5
Sapana bich pani ratti bhar chaina

E5          G5
Mera pandav babu ra ama
C5            B5
Baschan banka ek kunama
E5            G5
Ko sita pokhu maan ka taapa
C5             B5
Gardai pinjada bata bilapa

| E5 | G5 | C5 | B5, A5-G5-Gb5|

While pausing riff:
| E5 | G5 | C5 | B5 | x 2

E5         G5
Aasu bagai kahile runchu
C5          B5
Kahile urda tulya ma hunchu
E5           G5
Kahile pagal sari ufranchu
C5            B5
Kewal baan ko sukha samjhanchu

E5           G5
Falful khayi nitya ramai
C5            B5
Baan ma pirne babura lai
E5            G5
Bidhi le payo pinjada bhitra
C5               B5
Karma hare shiva huncha bichitra

| E5 | G5 | C5 | B5, A5-G5-Gb5|
| E5 | E5 |

Check out the solo plucking tutorial at the end of the article.

Solo:
| Em | G | Bm | C | x  8

While pausing riff:
| E5 | G5 | C5 | B5 | x 2

Riff when 2nd the solo begins with drums:
| E5 | G5 | C5 | B5 | x 2 

E5         G5
Kati duldo kati firdo
C5         B5
Kati deshantar duldachu
E5              G5
Daiba hare kina balak lai
C5            B5
Bandhan paryo byartha malai

E5             G5
Sheetal pahadi kunja nibasi
C5            B5
Bhojan meetha phalko khasa
E5             G5
Ti saba hun ki aja binasha
C5            B5
Baki cha ekai mann ko trasha

| E5 | G5 | C5 | B5, A5-G5-Gb5|
| E5 | E5 |
Jagriti...

Solo plucking tutorial :

Position Em as following when playing Em plucking:

E - x
B - x
G - 0
D - 4
A - 2
E - 0

E ----------------------------
B ----------------------------
G -------------0-------------
D --------4------4-----4---
A ------2----2------2-------
E ---0-----------------------

Position G as the following when playing G plucking:

E - x
B - x
G - 0
D - 4
A - 2
E - 3

E ----------------------------
B ----------------------------
G -------------0-------------
D --------4------4-----4---
A ------2----2------2-------
E ---3-----------------------

Position Bm as below when playing Bm plucking:

E - x
B - 3
G - 0
D - 4
A - 2
E - x

E --------------------------------
B --------------------3----------
G -------------0--------0----0--
D --------4------4--------4----
A ------2------------------------
E -------------------------------

Position C as following when playing C plucking:

E - x
B - 3
G - 0
D - 4
A - 3
E - x

E --------------------------------
B --------------------3----------
G -------------0--------0----0--
D --------4------4--------4----
A ------3------------------------
E -------------------------------

69 Comments

Leave a Comment