Saath deu chords – Nebha

Sath Deu Chords
Nebha
youtube link


Riff #1:
-------------------------------------
----3h5p3---------------------------
------------4p2---------------------
------------------4p2p0-------------
---------------------------2---------
-------------------------------------


Riff #2
----------------------------------------
----------------------------------------
----------------------------------------
---------------------------------------
---2--2------4--2-----5--2-----7--2--
---0--0------2--0-----3--0-----5--0--

Riff #3
----------------------------------------
----------------------------------------
----------------------------------------
----------5---5------------------------
-----7-7---7---7-5-7------------------
----------------------------------------


Intro
[Bm G A Riff #1]  x 4 times

Bm             G          A             Riff#1
Runchu ma aja afno dina samjhi

Bm           G           A         Riff#1
Bityo jindagi  mero estai gari

Bm         G       A            Riff#1
Adhyaro ma ramauna sari

Bm            G       A             Riff#1
Nasama dubhi pidama paudi
              B5 G5       A5       Riff #2      
Sukha k ho    dukha k ho
         B5            G5         A5
Bhira pakha sari banyo jivaan mero

D5              A5     D5      Riff #3
Saath malai saatha deu

D5              A5     D5      Riff #3
Saath malai saatha deu

D5              A5     D5      Riff #3
Saath malai saatha deu
D5              A5     D5 D#5 E5 F5
Saath malai saatha deu


Dhuwa ra nashaka ti dina haru
Hidda hiddai harauthe ma
Aja ra atit lai samhalna khojda
Aso k ho haso k ho
Murti jhai banyo yo jivaan mero
Saath malai saatha deu
Saath malai saatha deu
Saath malai saatha deu
Saath malai saatha deu


B5         G5             A5               Riff #2       
     Rune chaina aba bhula samjhi

B5                G5             A5               Riff #2
    Garne chu kaam pura thiyo baki

B5          G5             A5           Riff #2
    Basne chaina aba eklai royi
B5                 G5  A5               Riff #2
    Badne chu aghi sahas boki


B5         G5             A5               Riff #2   x4


Saath malai saatha deu
Saath malai saatha deu
Saath malai saatha deu
Saath malai saatha deu

[Bm G A Riff #1]

4 Comments

Leave a Comment