Phool ko aankhama chords – Ani Chhoying Dolma

e|-5-2---2-0---0-2-5-2---0--5-2---2-0------------------|
B|-----3-----3---------3--------3-----3-0-3-7-5-3------|
G|-----------------------------------------------------|
D|-----------------------------------------------------|
A|-----------------------------------------------------|
E|-----------------------------------------------------|

e|-12-9-----------12-9-----------12-9---------------------2-0-----|
B|------12--9-5-7------12--9-5-7------12--9-5-7-9-7-5-0h2---------|
G|----------------------------------------------------------------|
D|----------------------------------------------------------------|
A|----------------------------------------------------------------|
E|----------------------------------------------------------------|

Eb             Gm Eb           Fm
Phool ko aankhama phoolai sansara
          Eb       Bb          Eb
kaadaa ko aankhama kaadai sansara
Eb              Ab     Eb         Fm
jhulkinchha hai chaaya bastu anusara
          Eb       Bb          Eb
kaadaa ko aankhama kaadai sansara

e|-2---2-0---0-2-5-2---0--2---2-0---0-4-0-7-5--|
B|---3-----3---------3------3-----3------------|
G|---------------------------------------------|
D|---------------------------------------------|
A|---------------------------------------------|
E|---------------------------------------------|

e|---5-7-9-7-5-2-3333-2222-0000----5-7-9-7-5-3-2-2s3-2-0-|
B|-7-----------------------------7-----------------------|
G|-------------------------------------------------------|
D|-------------------------------------------------------|
A|-------------------------------------------------------|
E|-------------------------------------------------------|
Eb            Fm       Eb          Fm
chitta suddha hos mero boli buddha hos
Cm        Eb    Bb       Eb
mero paitalale kirai namaros
Eb          Ab          Eb          Fm
ramro aankhama khulchha ramrai sansara
          Eb       Bb          Eb
kaadaa ko aankhama kaadai sansara


e|----------------------------------------|
B|----------------------------------------|
G|---------2------------------------------|
D|-424-2-4---2s4--2--0---0---0-2-0-44s7---|
A|---------------------2---2--------------|
E|----------------------------------------|

Eb        Fm        Eb         Fm
Taha taha jun dekhu kalo raataima
Cm            Eb      Bb         Eb
jivan sangeet sunu ma sukkha pataima
Eb           Ab           Eb          Fm
sanglo manma khulchha hai sanglai sansara
          Eb       Bb          Eb
kaadaa ko aankhama kaadai sansara

3 Comments

Leave a Comment