Ma sansar jitne chords – Sabin Rai

Intro:
Repeat this 4 times
E||--7------------------------------------------------|
B||-------7----5----------------5----7----7/9----5----|
G||-----------------4h6-------------------------------|
D||---------------------------------------------------|
A||---------------------------------------------------|
E||---------------------------------------------------|

here comes the solo:


E||-------------------------------------------------------------|
B||-------------------------------------------------------------|
G||-------------------------------------------------------------|
D||----------------------------------------9--------------------|
A||---------7-------7----9----9/11--------------11----9----7----|
E||--7--9------9------------------------------------------------|

----------------------------------------------------------|
----------------------------------------------------------|
----------------------------------------------------------|
--------------6h7h9----9/11----9h11h9------7----9----9----|
-------7~-------------------------------------------------|
--9-------------------------------------------------------|

---------------------------------------------------------------------|
---------------------------------------------------------------12----|
----------9-----------------11----------------------9----11b---------|
--9/11---------11------9----------9----9------11---------------------|
---------------------------------------------------------------------|
---------------------------------------------------------------------|

--------------------------------------------------------------------|
--------------------------12----------------------9----9h10h---9----|
--11r---9----11----9------------9----9----11------------------------|
--------------------------------------------------------------------|
--------------------------------------------------------------------|
--------------------------------------------------------------------|

----------------------------------------------------------------------|
------------------------------------------------------------9----9h---|
--11----9-------------------------9------------9----11----------------|
-------------7----9------9/11---------11------------------------------|
----------------------------------------------------------------------|
----------------------------------------------------------------------|

------------------------------------------------------|
--10h---9-----------------12--------------------------|
-------------11----9----------------------------------|
------------------------------------------------------|
--------------------------------------------7----9----|
----------------------------------7----9--------------|

-----------------------------------------------------------------------|
-------------------------------------9----9h-----10h---9---------------|
--------------------------9----11---------------------------11----9----|
-------------9----11---------------------------------------------------|
--9/---11--------------------------------------------------------------|
-----------------------------------------------------------------------|

------------------------------------------12------------------------||
-------------------------9----11----12b-----------12b---10h---12----||
--7/---9----9----11-------------------------------------------------||
--------------------------------------------------------------------||
--------------------------------------------------------------------||
--------------------------------------------------------------------||

   E                    C#m
ma sansaar jitne aat gardai chhu
         A          B       E
matra timi mero saath basideu
   E                           C#m
bhabishya le gaaune geet ma rachdai chhu
         A        B           E
matra timi sur ma taal milai deu

B       A          E
yehi ho aartha rachnu ko
B          A      E
itihaas ma amar rahos
B        A         E
timro ra mero kahani
B
sadhai sadhai........
     E                               C#m
jaba hidda hiddai thakchhu ma kahile kahi
         A         B        E
tyeti bela mero aad bani deu

      E                     C#m
jindagi ko modma sochna sakina bhane
          A      B           E
timro mitho bichar malai deu
B       A          E
yehi ho aartha bhannu ko
B       A           E
sapana thulo chhaina
B       A           E
bilauna garna naparos
B
jindagima........
A{POWER CHORD}      B
sunaulo haamro bhabishya
          A             B
sakar hunchha malai bharosa chha
   F                       Dm
ma harpal timro rakchhya garne chhu
      A#         C         F
matra timi aatmabal banideu
   F                        Dm
bhabishya le gaaune geet ma rachdai chhu
        A#           C        F
matra timi sur ma taal milai deu
C         A#          F
yehi ho aartha rachnu ko
C          A#         F
itihaas ma amar rahos
C         A#         F
timro ra mero kahani
C
sadhai sadhai.......
   F                     Dm
ma sansaar jitne aat gardai chhu
       A#          C         F
matra timi mero saath basideu

12 Comments

Leave a Comment