Chords for Sambodhan timilai by 1974AD

     E    C#m       G#m       A
Sambodhan   timilai gardaichu ma
    E  C#m      G#m      A
Sikeka  ti sabai dhun harule

     E   C#m      G#m        A
Samarpan  geet yo gardai chu ma
   E   C#m        G#m      A
Timrai   ti mitha raag harule

**
G#m       A          E
   Chaadi gayou haamilai
G#m       A         E
   Jeevan ko yo mod ma
G#m       A          E
  Samjhana bhai bilaayou
         Bm        E
Hawaa sangai udi gayou
         Bm  D         E
Yaada maatra ha  aba rahyou


   E   C#m      G#m     A
Samjhana   mutuma aai rancha
      E   C#m        G#m     A
Bitholcha   biyog ka pal harule
    E   C#m      G#m      A
Tadiyou   timi nabhetne gari
     E   C#m      G#m    A
Angalcha   timrai bhawanale

Repeat **
------------------------------|-----------------------------|
--7b------7h5-7-----5h7h5h4-5-|--7-5------------------------|
------------------------------|------4----------------------|
------------------------------|--------6-4h2-4h2------------|
------------------------------|------------------4-2-4/-----|
------------------------------|-----------------------------|
 
 
------------------------------|----------------------------------|
------------------------------|----------------------------------|
------------------------------|-------------9-11-11b---11h9------|
-------------------------9-11-|--9/11----11-----------------11---|
--4-----6--7-7-9----9/11------|----------------------------------|
------------------------------|----------------------------------|


-----------------------------------------------------9h11h12-|
-------------------------------------9h10h12-9h10h12---------|
-----------------------8h9h11-8h9h11-------------------------|
---------7h9h11-7h9h11---------------------------------------|
--7h9h11-----------------------------------------------------|
-------------------------------------------------------------|


--14r--14b----------14b--14-12-14----|--14b---------------------16-17-19-|
--12b--12b-14-12-14-19b--19-17-19----|--19b---------19-17-19-19----------|
-----------18-16-18------------------|-----------------------------------|
-------------------------------------|-----------------------------------|
-------------------------------------|-----------------------------------|
-------------------------------------|-----------------------------------| 

Leave a Comment